Artist: Josh Turner | Song: Me and God (tab)

 Josh Turner - Me and God (tab) Tab   Browse by artist name: A B C D E F G H I J K L M N O P Q R S T U V W X Y Z 0-9

Menu
Country music forum
Add/correct tabs
Links
Contact us
Privacy policy
Related items
Country music CDs
Country posters
Country sheet music
Ads

Josh Turner, Me and God (tab) Tabs


Josh Turner Lyrics. Please, support artist.
Buy:
Josh Turner Sheet Music | Turner Josh CD | Josh Turner Posters
Country Tabs > Turner Josh Tabs > Me and God (tab)

Artist/Band: Turner Josh Tabs
Song: Me and God (tab) Tab

This is intro I got from listening the song. It is not complete but better than nothing. Any questions or remarks to my
mail...karffiol@post.sk

tempo = 155

Guitar (Capo 1)

     Q    E  E  E  E   E  E   
E||--------------------------|
B||--------------------------|
G||----------------0h--2-----|
D||----------0--4---------0--|
A||--------------------------|
E||--------------------------|


  E   E  Q    E  Q    E   
-------------------------|
---------3---------------|
--2h--4-------2--0----2--|
-------------------------|
-------------------------|
-------------------------|


  E  Q    E  E  E  E  E   
-------------------------|
--3--2-------------------|
----------------2--4--2--|
----------2--4-----------|
-------------------------|
-------------------------|


  E   E  E   E   E  E  S  S  E   
--------------------------------|
--------------------------------|
---------2h--4p--2--------------|
--2h--4-------------4--4p-2p-0--|
--------------------------------|
--------------------------------|


  E   Q.     Q    Q     
-----------------------|
-----------------------|
-----------------------|
-------------2----4----|
--0h--2----------------|
-----------------------|


  H        E  Q.      
---------------------|
---------------------|
---------------------|
--5--------5--4------|
---------------------|
---------------------|


  H        E  Q.      
---------------------|
---------------------|
---------------------|
--2------------------|
-----------5--4------|
---------------------|


  W                          
-------------------|-------||
-------------------|-------||
-------------------|-------||
--0----------------|-------||
-------------------|-------||
-------------------|-------||




Duration Legend
---------------
W - whole
H - half
Q - quarter
E - 8th
S - 16th
T - 32nd
X - 64th
. - note dotted


Tablature Legend
----------------
h - hammer on
p - pull off

Please, support Josh Turner.
Buy Sheet Music | Buy Turner Josh CDs | Buy Turner Josh Posters
2005 - 2012 AllCountryTabs.com
Guitar Tab, Guitar Tabs
  All tabs are the author's own work and represents their interpretation of the song, tablature for bass,
or lead guitar. You may only use this tab or chord file for private study, scholarship or research.