Artist: Allan Gary | Song: Right Where I Need To Be

 Allan Gary - Right Where I Need To Be Tab   Browse by artist name: A B C D E F G H I J K L M N O P Q R S T U V W X Y Z 0-9

Menu
Country music forum
Add/correct tabs
Links
Contact us
Privacy policy
Related items
Country music CDs
Country posters
Country sheet music
Ads

Allan Gary, Right Where I Need To Be Tabs


Allan Gary Lyrics. Please, support artist.
Buy:
Allan Gary Sheet Music | Gary Allan CD | Allan Gary Posters
Country Tabs > Gary Allan Tabs > Right Where I Need To Be

Artist/Band: Gary Allan Tabs
Song: Right Where I Need To Be Tab

    F		  C			G
E--------9--9---------9--9----------9/11-----11------11ó--
B-6/7-7--------7/6-6--------6---7/6-7/9-------------------
G---------------------------------------------------------
D---------------------------------------------------------
A---------------------------------------------------------
E---------------------------------------------------------

  F			 C		       G
E--------9--9---------9--9--------------------------------
B-6/7-7--------7/6-6--------6----------9------------------
G------------------------------8h9-8------1---------------
D---------------------------------------------------------
A---------------------------------------------------------
E---------------------------------------------------------

Chord progression is F C G G all the way through the song (so for those
who donít know, itís FCGG on each line)

(verse 1)
Thereís a plane flyiní outta here tonight 
Destination New Orleans 
Boss man says my big promotionís on the line 
He says thatís right where I need to be

(verse 2)
Lately Iíve been on the road more than Iíve been home 
All this leaviní her alone is killiní me 
And holdiní her right now has got me thinkiní more and more 
This is right where I need to be 

(chorus)
Where when I hear her I can see her I can smell her sweet perfume
I can feel her skin against me when I sleep 
Where I wonít miss her I can kiss her anytime that I want to 
Yeah thatís right where I need to be 
Yeah thatís right where I need to be 

(verse 3)
Thereís a plane flyiní outta here tonight
With an empty first class seat
ĎCause Iíve finally got all my priorities in line 
And Iím right where I need to be

(chorus)
Where when I hear her I can see her I can smell her sweet perfume 
I can feel her skin against me when I sleep 
Where I wonít miss her I can kiss her anytime that I want to 
Yeah thatís right where I need to be 
Yeah Iím right where I need to be

(chorded and tabbed out by Riley Van Thiel)

Please, support Allan Gary.
Buy Sheet Music | Buy Gary Allan CDs | Buy Gary Allan Posters
2005 - 2012 AllCountryTabs.com
Guitar Tab, Guitar Tabs
  All tabs are the author's own work and represents their interpretation of the song, tablature for bass,
or lead guitar. You may only use this tab or chord file for private study, scholarship or research.