Artist: Luke Bryan | Song: Country Girl / Shake It For Me

 Luke Bryan - Country Girl / Shake It For Me Tab   Browse by artist name: A B C D E F G H I J K L M N O P Q R S T U V W X Y Z 0-9

Menu
Country music forum
Add/correct tabs
Links
Contact us
Privacy policy
Related items
Country music CDs
Country posters
Country sheet music
Ads

Luke Bryan, Country Girl / Shake It For Me Tabs


Luke Bryan Lyrics. Please, support artist.
Buy:
Luke Bryan Sheet Music | Bryan Luke CD | Luke Bryan Posters
Country Tabs > Bryan Luke Tabs > Country Girl / Shake It For Me

Artist/Band: Bryan Luke Tabs
Song: Country Girl / Shake It For Me Tab

Intro:

e---------------------------------------------------------|
B---------------------------------------------------------|
G---------------------------------------------------------|
D-0h2--0h2-2h4-0h2--0h2-2h4h2-0h2--------------------4-2--|
A---------------------------------0h2-2-0h2-2--0h2-2------|
E---------------------------------------------------------|

e---------------------------------------------------------|
B---------------------------------------------------------|
G---------------------------------------------------------|
D-0h2--0h2-2h4h2-0h2--0h2-2h4h2-0h2-----22-2-2------------|
A-----------------------------------0h2-22-2-2------------|
E---------------------------------------------------------|

E
Got a little boom in my big truck
        G
Gonna open up the doors and turn it up
         Asus2
Gonna stomp my boots in the Georgia mud
           E
Gonna watch you make me fall in love
      E
Get up on the hood of my daddy's tractor
G
Up on the tool box, it don't matter
Asus2
Down on the tailgate, Girl I can't wait
    E
To watch you do your thing

Chorus
                  E
Shake it for the young bucks sittin' in the honky-tonks
    	G
For the rednecks rockin' 'til the break of dawn
    Asus2
The DJ spinnin' that country song
E
C'mon, c'mon, c'mon
                 E
Shake it for the birds, shake it for the bees
                  G
Shake it for the catfish swimmin' down deep in the creek
        Asus2
For the crickets and the critters and the squirrels
                 E
Shake it to the moon, shake it for me girl
     E                          G
Aw, country girl, shake it for me
	           Asus2
Girl, shake it for me
                   E      G     Asus2
Girl, shake it for me
 E	                   G
Country girl, shake it for me
	            Asus2
Girl, shake it for me
	           E      G      Asus2
Girl, shake it for me

E
Strum ‘bout a sweet little farmer's child
    G
She got it in her blood to get a little wild
Asus2
Pony-tail and a pretty smile
E
Rope me in from a country mile
     E
So come on over here and get in my arms
G
Spin me around this big ole barn
Asus2
Tangle me up like grandma's yarn
E
One more time

Chorus
                 E
Shake it for the young bucks sittin' in the honky-tonks
    	G
For the rednecks rockin' 'til the break of dawn
     Asus2
The DJ spinnin' that country song
E
C'mon, c'mon, c'mon
                 E
Shake it for the birds, shake it for the bees
                  G
Shake it for the catfish swimmin' down deep in the creek
        Asus2
For the crickets and the critters and the squirrels
                  E
Shake it to the moon, shake it for me girl
      E                         G
Aw, country girl, shake it for me
	           Asus2
Girl, shake it for me
                   E      G     Asus2
Girl, shake it for me
 E	                   G
Country girl, shake it for me
	           Asus2
Girl, shake it for me
	            E      G      Asus2
Girl, shake it for me

E     G     Asus2     E     (2x)

e----------------------------------------------------------|
B----------------------------------------------------------|
G----------------------------------------------------------|
D-0h2-2-4-2-0h2------2-4-2-0h2--0h2-2-4-2-0h2--------------|
A----------------0h2--------------------------0h2-2-0h2-2--|
E----------------------------------------------------------|

e----------------------------------------------------------|
B----------------------------------------------------------|
G----------------------------------------------------------|
D------4-2-0h2--0h2-2-4-2-0h2--0h2-2-4-2-0h2----2----------|
A-0h2----------------------------------------0h2--0h2-2----|
E----------------------------------------------------------|

        E
Now dance, like a dandelion
   	G
In the wind on the hill underneath the pines
       Asus2
Yeah, move like the river flows
E
Feel the kick drum down deep in your toes
E
All I wanna do is get to holdin' you
 	    G
And get to knowin' you

And get to showin' you
	    Asus2
And get to lovin' you

'Fore the night is through
      E
Baby, you know what to do


Chorus
                  E
Shake it for the young bucks sittin' in the honky-tonks
    	G
For the rednecks rockin' 'til the break of dawn
    Asus2
The DJ spinnin' that country song
E
C'mon, c'mon, c'mon
                 E
Shake it for the birds, shake it for the bees
                  G
Shake it for the catfish swimmin' down deep in the creek
         Asus2
For the crickets and the critters and the squirrels
                E
Shake it to the moon, shake it for me girl
     E                         G
Aw, country girl, shake it for me
	           Asus2
Girl, shake it for me
                   E      G     Asus2
Girl, shake it for me
 E	                   G
Country girl, shake it for me
	           Asus2
Girl, shake it for me
	            E      G      Asus2
Girl, shake it for me

        E                        G
Well, country girl, shake it for me
	           Asus2
Girl, shake it for me
                   E      G     Asus2
Girl, shake it for me

*Strum every chord once
 E	                   G
Country girl, shake it for me
	           Asus2
Girl, shake it for me
	           E
Girl, shake it for me

Please, support Luke Bryan.
Buy Sheet Music | Buy Bryan Luke CDs | Buy Bryan Luke Posters
2005 - 2012 AllCountryTabs.com
Guitar Tab, Guitar Tabs
  All tabs are the author's own work and represents their interpretation of the song, tablature for bass,
or lead guitar. You may only use this tab or chord file for private study, scholarship or research.